Logo principal Acords.net Segueix Acords.net al Twitter Segueix-nos al Twitter!


Aquesta nit Lax'n'busto
Celleta al 1r trast

e|--------------0---------------------------0---------------|
B|--------0-------------0-------------0-------------0-------|  intr.
G|-----2-----2-------2-----2-------2-----2-------2-----2----|
D|----------------------------------------------------------|   x2
A|--0-------------------------------------------------------|
E|------------------------------2---------------------------|


e|--------------0-----------------------------------------------|
B|--------0-------------0-------------------(mateix)------------| estrofa
G|-----2-----2-------2-----2-----(mateix)--------------(mateix)-|
D|-----------------------------------------0--------------------|    x3
A|--0-----------------------------------------------------------|
E|------------------------------2---------------------0---------|


No sé com dir-te que em crema ja massa l'espera
sobren paraules, mirades, cerveses i festa.
Veig llum al teus ulls que son foscos color de la nit
i son ells els que em diuen El que els teus llavis no em saben dir.

No vull prometre ni vull comprometre els teus somnis
         Re                    Mi
Però les coses no són  tal com les images
      Re                        Mi                    La
hi ha cops que tu sents que una força t'estira i te'n vas.

      Do#m                 Fa#m
   El passat és ple i el futur es buit
           Re                  Mi
   i no hi ha res que passi si jo no ho escric
         La                    Fa#m 
   només vull que ser teu per aquesta nit
     Re               Mi               La
   i néixer al teu costat demà al matí.


e|--------------0-----------------------------------------------|
B|--------0-------------0-------------------(mateix)------------| estrofa
G|-----2-----2-------2-----2-----(mateix)--------------(mateix)-|
D|-----------------------------------------0--------------------|    x3
A|--0-----------------------------------------------------------|
E|------------------------------2---------------------0---------|

Diuen que cada nou dia és una nova vida
que la llum del matí guarirà aquesta nova ferida
i les coses seran com va ser unes vides abans
       Re               Mi
Perquè no seré jo qui manegui el destí
       Re                       Mi                  La
que tu creus que a la fí vas trobar-te amb el teu marit.

           Do#m                Fa#m
   I esque jo no entenc perquè tanta gent
          Re                    Mi
   dels desitjos fa somnis però no s'atreveix.
             La                         Fa#m                         
   Potser és cert que hi ha cops en que jo mateix
      Re                Mi           Fa#m Mi La
   no goso a fer el que faig aquesta nit 


La Fa#m (Repetidament)

   Però el passat...

La Fa#m (Repetidament)

La

Font: www.toxics.cjb.net
Acords de: Silvia Valle

 

Acords.net, 2006-2010 - Política de privacitat